ISO-10303-21;
HEADER;
FILE_DESCRIPTION (( 'STEP AP203' ),
    '1' );
FILE_NAME ('BK7-LPBSC-10-915.STEP',
    '2020-12-22T03:10:49',
    ( '' ),
    ( '' ),
    'SwSTEP 2.0',
    'SolidWorks 2020',
    '' );
FILE_SCHEMA (( 'CONFIG_CONTROL_DESIGN' ));
ENDSEC;

DATA;
#1 = EDGE_CURVE ( 'NONE', #311, #90, #6, .T. ) ;
#2 = VERTEX_POINT ( 'NONE', #29 ) ;
#3 = CALENDAR_DATE ( 2020, 22, 12 ) ;
#4 = CARTESIAN_POINT ( 'NONE',  ( 5.000000000000000888, 5.000000000000001776, -5.000000000000000000 ) ) ;
#5 = ORIENTED_EDGE ( 'NONE', *, *, #209, .F. ) ;
#6 = LINE ( 'NONE', #4, #171 ) ;
#7 = CALENDAR_DATE ( 2020, 22, 12 ) ;
#8 = CARTESIAN_POINT ( 'NONE',  ( -5.000000000000000888, -4.999999999999998224, -5.000000000000000000 ) ) ;
#9 = SHAPE_DEFINITION_REPRESENTATION ( #93, #78 ) ;
#10 = FACE_OUTER_BOUND ( 'NONE', #217, .T. ) ;
#11 = ADVANCED_FACE ( 'NONE', ( #229 ), #26, .T. ) ;
#12 = CARTESIAN_POINT ( 'NONE',  ( 5.000000000000002665, 5.000000000000000000, 5.000000000000000000 ) ) ;
#13 = CARTESIAN_POINT ( 'NONE',  ( 5.000000000000002665, 5.000000000000000000, -5.000000000000000000 ) ) ;
#14 = CARTESIAN_POINT ( 'NONE',  ( -4.999999999999999112, -5.000000000000000000, -5.000000000000000000 ) ) ;
#15 = AXIS2_PLACEMENT_3D ( 'NONE', #127, #231, #195 ) ;
#16 = ORIENTED_EDGE ( 'NONE', *, *, #32, .F. ) ;
#17 = ORIENTED_EDGE ( 'NONE', *, *, #289, .F. ) ;
#18 = ORGANIZATION ( 'UNSPECIFIED', 'UNSPECIFIED', '' ) ;
#19 = LOCAL_TIME ( 11, 10, 49.00000000000000000, #308 ) ;
#20 =( LENGTH_UNIT ( ) NAMED_UNIT ( * ) SI_UNIT ( .MILLI., .METRE. ) );
#21 = ORIENTED_EDGE ( 'NONE', *, *, #28, .F. ) ;
#22 = VECTOR ( 'NONE', #232, 1000.000000000000000 ) ;
#23 = ORIENTED_EDGE ( 'NONE', *, *, #256, .T. ) ;
#24 = PERSON_AND_ORGANIZATION_ROLE ( 'creator' ) ;
#25 = VECTOR ( 'NONE', #31, 1000.000000000000000 ) ;
#26 = PLANE ( 'NONE',  #37 ) ;
#27 = VERTEX_POINT ( 'NONE', #275 ) ;
#28 = EDGE_CURVE ( 'NONE', #186, #311, #223, .T. ) ;
#29 = CARTESIAN_POINT ( 'NONE',  ( 5.000000000000000888, -5.000000000000000000, 5.000000000000000000 ) ) ;
#30 = PERSON_AND_ORGANIZATION ( #68, #18 ) ;
#31 = DIRECTION ( 'NONE',  ( 2.220446049250313081E-16, 1.000000000000000000, 0.000000000000000000 ) ) ;
#32 = EDGE_CURVE ( 'NONE', #2, #201, #80, .T. ) ;
#33 = FACE_OUTER_BOUND ( 'NONE', #222, .T. ) ;
#34 = DIRECTION ( 'NONE',  ( 1.000000000000000000, -4.857225732735059864E-17, 0.000000000000000000 ) ) ;
#35 = APPROVAL ( #255, 'UNSPECIFIED' ) ;
#36 = LINE ( 'NONE', #157, #292 ) ;
#37 = AXIS2_PLACEMENT_3D ( 'NONE', #204, #205, #176 ) ;
#38 = VECTOR ( 'NONE', #263, 1000.000000000000000 ) ;
#39 = DIRECTION ( 'NONE',  ( -0.000000000000000000, -0.000000000000000000, -1.000000000000000000 ) ) ;
#40 = DIRECTION ( 'NONE',  ( 1.000000000000000000, 0.000000000000000000, 0.000000000000000000 ) ) ;
#41 = EDGE_CURVE ( 'NONE', #319, #311, #147, .T. ) ;
#42 = AXIS2_PLACEMENT_3D ( 'NONE', #88, #316, #84 ) ;
#43 = VERTEX_POINT ( 'NONE', #126 ) ;
#44 = APPLICATION_PROTOCOL_DEFINITION ( 'international standard', 'config_control_design', 1994, #264 ) ;
#45 = CC_DESIGN_PERSON_AND_ORGANIZATION_ASSIGNMENT ( #124, #140, ( #104 ) ) ;
#46 = DIRECTION ( 'NONE',  ( 0.000000000000000000, 1.000000000000000000, 0.000000000000000000 ) ) ;
#47 = ORIENTED_EDGE ( 'NONE', *, *, #41, .F. ) ;
#48 = DATE_AND_TIME ( #196, #63 ) ;
#49 = PRODUCT ( 'BK7-LPBSC-10-915', 'BK7-LPBSC-10-915', '', ( #244 ) ) ;
#50 = ORIENTED_EDGE ( 'NONE', *, *, #294, .T. ) ;
#51 = APPROVAL_PERSON_ORGANIZATION ( #321, #136, #270 ) ;
#52 = PERSON_AND_ORGANIZATION_ROLE ( 'design_supplier' ) ;
#53 = ORIENTED_EDGE ( 'NONE', *, *, #128, .F. ) ;
#54 = CARTESIAN_POINT ( 'NONE',  ( -4.999999999999999112, -5.000000000000000000, -5.000000000000000000 ) ) ;
#55 = DATE_TIME_ROLE ( 'creation_date' ) ;
#56 = APPROVAL_STATUS ( 'not_yet_approved' ) ;
#57 = PLANE ( 'NONE',  #234 ) ;
#58 = LOCAL_TIME ( 11, 10, 49.00000000000000000, #200 ) ;
#59 = DIRECTION ( 'NONE',  ( 1.734723475976807094E-16, 1.000000000000000000, -0.000000000000000000 ) ) ;
#60 = DIRECTION ( 'NONE',  ( -0.7071067811865475727, -0.7071067811865474617, 0.000000000000000000 ) ) ;
#61 = CC_DESIGN_PERSON_AND_ORGANIZATION_ASSIGNMENT ( #172, #52, ( #240 ) ) ;
#62 = DIRECTION ( 'NONE',  ( -0.000000000000000000, 0.000000000000000000, -1.000000000000000000 ) ) ;
#63 = LOCAL_TIME ( 11, 10, 49.00000000000000000, #120 ) ;
#64 = PRODUCT_DEFINITION ( 'UNKNOWN', '', #240, #185 ) ;
#65 = DIRECTION ( 'NONE',  ( 2.220446049250313081E-16, 1.000000000000000000, 0.000000000000000000 ) ) ;
#66 = CC_DESIGN_DATE_AND_TIME_ASSIGNMENT ( #48, #55, ( #64 ) ) ;
#67 = DIRECTION ( 'NONE',  ( 2.220446049250313081E-16, 1.000000000000000000, 0.000000000000000000 ) ) ;
#68 = PERSON ( 'UNSPECIFIED', 'UNSPECIFIED', 'UNSPECIFIED', ('UNSPECIFIED'), ('UNSPECIFIED'), ('UNSPECIFIED') ) ;
#69 = AXIS2_PLACEMENT_3D ( 'NONE', #216, #46, #118 ) ;
#70 = ORIENTED_EDGE ( 'NONE', *, *, #128, .T. ) ;
#71 = ADVANCED_FACE ( 'NONE', ( #198 ), #277, .F. ) ;
#72 = ORIENTED_EDGE ( 'NONE', *, *, #209, .T. ) ;
#73 = PLANE ( 'NONE',  #218 ) ;
#74 = ORIENTED_EDGE ( 'NONE', *, *, #187, .F. ) ;
#75 = EDGE_CURVE ( 'NONE', #201, #95, #103, .T. ) ;
#76 = CALENDAR_DATE ( 2020, 22, 12 ) ;
#77 = LINE ( 'NONE', #227, #267 ) ;
#78 = ADVANCED_BREP_SHAPE_REPRESENTATION ( 'BK7-LPBSC-10-915', ( #174, #177, #206 ), #81 ) ;
#79 = APPROVAL_DATE_TIME ( #97, #35 ) ;
#80 = LINE ( 'NONE', #145, #114 ) ;
#81 =( GEOMETRIC_REPRESENTATION_CONTEXT ( 3 ) GLOBAL_UNCERTAINTY_ASSIGNED_CONTEXT ( ( #303 ) ) GLOBAL_UNIT_ASSIGNED_CONTEXT ( ( #20, #193, #295 ) ) REPRESENTATION_CONTEXT ( 'NONE', 'WORKASPACE' ) );
#82 = DIRECTION ( 'NONE',  ( -0.7071067811865475727, -0.7071067811865474617, 0.000000000000000000 ) ) ;
#83 = DIRECTION ( 'NONE',  ( -0.7071067811865475727, -0.7071067811865474617, 0.000000000000000000 ) ) ;
#84 = DIRECTION ( 'NONE',  ( 0.000000000000000000, 0.000000000000000000, 1.000000000000000000 ) ) ;
#85 = CARTESIAN_POINT ( 'NONE',  ( 5.000000000000002665, 5.000000000000000000, 5.000000000000000000 ) ) ;
#86 = PLANE ( 'NONE',  #151 ) ;
#87 = LINE ( 'NONE', #181, #220 ) ;
#88 = CARTESIAN_POINT ( 'NONE',  ( -5.000000000000000888, -4.999999999999998224, 5.000000000000000000 ) ) ;
#89 = CARTESIAN_POINT ( 'NONE',  ( -5.000000000000000888, -4.999999999999998224, -5.000000000000000000 ) ) ;
#90 = VERTEX_POINT ( 'NONE', #125 ) ;
#91 = DIRECTION ( 'NONE',  ( -0.000000000000000000, 0.000000000000000000, 1.000000000000000000 ) ) ;
#92 = ORIENTED_EDGE ( 'NONE', *, *, #155, .T. ) ;
#93 = PRODUCT_DEFINITION_SHAPE ( 'NONE', 'NONE',  #64 ) ;
#94 = AXIS2_PLACEMENT_3D ( 'NONE', #266, #106, #40 ) ;
#95 = VERTEX_POINT ( 'NONE', #260 ) ;
#96 = VECTOR ( 'NONE', #39, 1000.000000000000000 ) ;
#97 = DATE_AND_TIME ( #76, #19 ) ;
#98 = EDGE_LOOP ( 'NONE', ( #92, #273, #121, #72 ) ) ;
#99 = ORIENTED_EDGE ( 'NONE', *, *, #32, .T. ) ;
#100 = PERSON_AND_ORGANIZATION ( #68, #18 ) ;
#101 = CC_DESIGN_PERSON_AND_ORGANIZATION_ASSIGNMENT ( #100, #168, ( #64 ) ) ;
#102 = DATE_AND_TIME ( #7, #282 ) ;
#103 = LINE ( 'NONE', #306, #300 ) ;
#104 = SECURITY_CLASSIFICATION ( '', '', #304 ) ;
#105 = CARTESIAN_POINT ( 'NONE',  ( -4.999999999999999112, 5.000000000000001776, 5.000000000000000000 ) ) ;
#106 = DIRECTION ( 'NONE',  ( -0.000000000000000000, 0.000000000000000000, 1.000000000000000000 ) ) ;
#107 = VECTOR ( 'NONE', #138, 1000.000000000000000 ) ;
#108 = LINE ( 'NONE', #291, #249 ) ;
#109 = LINE ( 'NONE', #113, #96 ) ;
#110 = CC_DESIGN_APPROVAL ( #139, ( #104 ) ) ;
#111 = CC_DESIGN_PERSON_AND_ORGANIZATION_ASSIGNMENT ( #276, #24, ( #240 ) ) ;
#112 = EDGE_CURVE ( 'NONE', #43, #319, #77, .T. ) ;
#113 = CARTESIAN_POINT ( 'NONE',  ( -4.999999999999999112, -5.000000000000000000, 5.000000000000000000 ) ) ;
#114 = VECTOR ( 'NONE', #59, 1000.000000000000000 ) ;
#115 = ORIENTED_EDGE ( 'NONE', *, *, #1, .F. ) ;
#116 = ORIENTED_EDGE ( 'NONE', *, *, #112, .T. ) ;
#117 = ORIENTED_EDGE ( 'NONE', *, *, #320, .F. ) ;
#118 = DIRECTION ( 'NONE',  ( 0.000000000000000000, -0.000000000000000000, 1.000000000000000000 ) ) ;
#119 = ORIENTED_EDGE ( 'NONE', *, *, #252, .T. ) ;
#120 = COORDINATED_UNIVERSAL_TIME_OFFSET ( 8, 0, .AHEAD. ) ;
#121 = ORIENTED_EDGE ( 'NONE', *, *, #294, .F. ) ;
#122 = CC_DESIGN_DATE_AND_TIME_ASSIGNMENT ( #102, #144, ( #104 ) ) ;
#123 = CARTESIAN_POINT ( 'NONE',  ( 0.000000000000000000, 0.000000000000000000, -5.000000000000000000 ) ) ;
#124 = PERSON_AND_ORGANIZATION ( #68, #18 ) ;
#125 = CARTESIAN_POINT ( 'NONE',  ( 5.000000000000000888, 5.000000000000001776, -5.000000000000000000 ) ) ;
#126 = CARTESIAN_POINT ( 'NONE',  ( -5.000000000000000888, -4.999999999999998224, 5.000000000000000000 ) ) ;
#127 = CARTESIAN_POINT ( 'NONE',  ( 5.000000000000000888, 5.000000000000001776, 5.000000000000000000 ) ) ;
#128 = EDGE_CURVE ( 'NONE', #27, #134, #313, .T. ) ;
#129 = PLANE ( 'NONE',  #283 ) ;
#130 = DIRECTION ( 'NONE',  ( -0.000000000000000000, -0.000000000000000000, -1.000000000000000000 ) ) ;
#131 = EDGE_LOOP ( 'NONE', ( #117, #190, #224, #116 ) ) ;
#132 = ADVANCED_FACE ( 'NONE', ( #33 ), #280, .F. ) ;
#133 = CC_DESIGN_PERSON_AND_ORGANIZATION_ASSIGNMENT ( #212, #188, ( #49 ) ) ;
#134 = VERTEX_POINT ( 'NONE', #54 ) ;
#135 = CARTESIAN_POINT ( 'NONE',  ( 0.000000000000000000, 0.000000000000000000, 5.000000000000000000 ) ) ;
#136 = APPROVAL ( #298, 'UNSPECIFIED' ) ;
#137 = VERTEX_POINT ( 'NONE', #143 ) ;
#138 = DIRECTION ( 'NONE',  ( -0.000000000000000000, 0.000000000000000000, -1.000000000000000000 ) ) ;
#139 = APPROVAL ( #56, 'UNSPECIFIED' ) ;
#140 = PERSON_AND_ORGANIZATION_ROLE ( 'classification_officer' ) ;
#141 = ADVANCED_FACE ( 'NONE', ( #258 ), #57, .F. ) ;
#142 = ORIENTED_EDGE ( 'NONE', *, *, #245, .F. ) ;
#143 = CARTESIAN_POINT ( 'NONE',  ( 5.000000000000000888, -5.000000000000000000, -5.000000000000000000 ) ) ;
#144 = DATE_TIME_ROLE ( 'classification_date' ) ;
#145 = CARTESIAN_POINT ( 'NONE',  ( 5.000000000000002665, 5.000000000000000000, 5.000000000000000000 ) ) ;
#146 = APPROVAL_ROLE ( '' ) ;
#147 = LINE ( 'NONE', #8, #25 ) ;
#148 = VECTOR ( 'NONE', #60, 1000.000000000000000 ) ;
#149 = DIRECTION ( 'NONE',  ( 1.000000000000000000, -4.857225732735059864E-17, 0.000000000000000000 ) ) ;
#150 = DIRECTION ( 'NONE',  ( -1.000000000000000000, 1.734723475976807094E-16, 0.000000000000000000 ) ) ;
#151 = AXIS2_PLACEMENT_3D ( 'NONE', #286, #150, #261 ) ;
#152 = VECTOR ( 'NONE', #268, 1000.000000000000000 ) ;
#153 = LINE ( 'NONE', #13, #154 ) ;
#154 = VECTOR ( 'NONE', #288, 1000.000000000000000 ) ;
#155 = EDGE_CURVE ( 'NONE', #134, #137, #156, .T. ) ;
#156 = LINE ( 'NONE', #14, #38 ) ;
#157 = CARTESIAN_POINT ( 'NONE',  ( 5.000000000000000888, -5.000000000000000000, 5.000000000000000000 ) ) ;
#158 = APPROVAL_PERSON_ORGANIZATION ( #312, #139, #146 ) ;
#159 = ORIENTED_EDGE ( 'NONE', *, *, #1, .T. ) ;
#160 = EDGE_CURVE ( 'NONE', #43, #186, #237, .T. ) ;
#161 = DIRECTION ( 'NONE',  ( 1.000000000000000000, 0.000000000000000000, 0.000000000000000000 ) ) ;
#162 = ORIENTED_EDGE ( 'NONE', *, *, #75, .T. ) ;
#163 = CLOSED_SHELL ( 'NONE', ( #213, #299, #297, #307, #279 ) ) ;
#164 = ORIENTED_EDGE ( 'NONE', *, *, #256, .F. ) ;
#165 = APPLICATION_CONTEXT ( 'configuration controlled 3d designs of mechanical parts and assemblies' ) ;
#166 = ORIENTED_EDGE ( 'NONE', *, *, #160, .F. ) ;
#167 = CARTESIAN_POINT ( 'NONE',  ( -4.999999999999999112, 5.000000000000001776, 5.000000000000000000 ) ) ;
#168 = PERSON_AND_ORGANIZATION_ROLE ( 'creator' ) ;
#169 = VERTEX_POINT ( 'NONE', #287 ) ;
#170 = DIRECTION ( 'NONE',  ( -0.000000000000000000, 0.000000000000000000, -1.000000000000000000 ) ) ;
#171 = VECTOR ( 'NONE', #149, 1000.000000000000000 ) ;
#172 = PERSON_AND_ORGANIZATION ( #68, #18 ) ;
#173 = DIRECTION ( 'NONE',  ( 0.7071067811865475727, 0.7071067811865474617, 0.000000000000000000 ) ) ;
#174 = MANIFOLD_SOLID_BREP ( 'Í¹Ì¨-À', #163 ) ;
#175 = COORDINATED_UNIVERSAL_TIME_OFFSET ( 8, 0, .AHEAD. ) ;
#176 = DIRECTION ( 'NONE',  ( 2.220446049250313081E-16, 1.000000000000000000, 0.000000000000000000 ) ) ;
#177 = MANIFOLD_SOLID_BREP ( '¾µÏ', #318 ) ;
#178 = LOCAL_TIME ( 11, 10, 49.00000000000000000, #175 ) ;
#179 = CARTESIAN_POINT ( 'NONE',  ( 5.000000000000002665, 5.000000000000000000, -5.000000000000000000 ) ) ;
#180 = LINE ( 'NONE', #207, #22 ) ;
#181 = CARTESIAN_POINT ( 'NONE',  ( 5.000000000000000888, 5.000000000000001776, 5.000000000000000000 ) ) ;
#182 = LINE ( 'NONE', #242, #281 ) ;
#183 = DIRECTION ( 'NONE',  ( 0.7071067811865475727, 0.7071067811865474617, 0.000000000000000000 ) ) ;
#184 = PLANE ( 'NONE',  #42 ) ;
#185 = DESIGN_CONTEXT ( 'detailed design', #165, 'design' ) ;
#186 = VERTEX_POINT ( 'NONE', #105 ) ;
#187 = EDGE_CURVE ( 'NONE', #137, #27, #153, .T. ) ;
#188 = PERSON_AND_ORGANIZATION_ROLE ( 'design_owner' ) ;
#189 = EDGE_LOOP ( 'NONE', ( #162, #50, #99 ) ) ;
#190 = ORIENTED_EDGE ( 'NONE', *, *, #235, .F. ) ;
#191 = FACE_OUTER_BOUND ( 'NONE', #189, .T. ) ;
#192 = ORIENTED_EDGE ( 'NONE', *, *, #235, .T. ) ;
#193 =( NAMED_UNIT ( * ) PLANE_ANGLE_UNIT ( ) SI_UNIT ( $, .RADIAN. ) );
#194 = EDGE_LOOP ( 'NONE', ( #17, #142, #166 ) ) ;
#195 = DIRECTION ( 'NONE',  ( -1.000000000000000000, 4.857225732735059864E-17, 0.000000000000000000 ) ) ;
#196 = CALENDAR_DATE ( 2020, 22, 12 ) ;
#197 = ORIENTED_EDGE ( 'NONE', *, *, #320, .T. ) ;
#198 = FACE_OUTER_BOUND ( 'NONE', #131, .T. ) ;
#199 = CC_DESIGN_APPROVAL ( #35, ( #240 ) ) ;
#200 = COORDINATED_UNIVERSAL_TIME_OFFSET ( 8, 0, .AHEAD. ) ;
#201 = VERTEX_POINT ( 'NONE', #12 ) ;
#202 = DIRECTION ( 'NONE',  ( -0.7071067811865474617, 0.7071067811865475727, 0.000000000000000000 ) ) ;
#203 = AXIS2_PLACEMENT_3D ( 'NONE', #254, #202, #173 ) ;
#204 = CARTESIAN_POINT ( 'NONE',  ( 0.000000000000000000, 0.000000000000000000, 5.000000000000000000 ) ) ;
#205 = DIRECTION ( 'NONE',  ( 0.000000000000000000, -0.000000000000000000, 1.000000000000000000 ) ) ;
#206 = AXIS2_PLACEMENT_3D ( 'NONE', #269, #211, #161 ) ;
#207 = CARTESIAN_POINT ( 'NONE',  ( -4.999999999999999112, -5.000000000000000000, 5.000000000000000000 ) ) ;
#208 = CARTESIAN_POINT ( 'NONE',  ( -5.000000000000000888, -4.999999999999998224, 5.000000000000000000 ) ) ;
#209 = EDGE_CURVE ( 'NONE', #95, #134, #109, .T. ) ;
#210 = CARTESIAN_POINT ( 'NONE',  ( 5.000000000000002665, 5.000000000000000000, 5.000000000000000000 ) ) ;
#211 = DIRECTION ( 'NONE',  ( 0.000000000000000000, 0.000000000000000000, 1.000000000000000000 ) ) ;
#212 = PERSON_AND_ORGANIZATION ( #68, #18 ) ;
#213 = ADVANCED_FACE ( 'NONE', ( #233 ), #129, .F. ) ;
#214 = APPLICATION_PROTOCOL_DEFINITION ( 'international standard', 'config_control_design', 1994, #165 ) ;
#215 = EDGE_LOOP ( 'NONE', ( #53, #74, #302 ) ) ;
#216 = CARTESIAN_POINT ( 'NONE',  ( -4.999999999999999112, -5.000000000000000000, 5.000000000000000000 ) ) ;
#217 = EDGE_LOOP ( 'NONE', ( #271, #164, #16, #119 ) ) ;
#218 = AXIS2_PLACEMENT_3D ( 'NONE', #135, #91, #247 ) ;
#219 = LINE ( 'NONE', #272, #152 ) ;
#220 = VECTOR ( 'NONE', #62, 1000.000000000000000 ) ;
#221 = DATE_AND_TIME ( #3, #58 ) ;
#222 = EDGE_LOOP ( 'NONE', ( #115, #21, #293, #192 ) ) ;
#223 = LINE ( 'NONE', #167, #107 ) ;
#224 = ORIENTED_EDGE ( 'NONE', *, *, #289, .T. ) ;
#225 = DIRECTION ( 'NONE',  ( 0.000000000000000000, -0.000000000000000000, 1.000000000000000000 ) ) ;
#226 = COORDINATED_UNIVERSAL_TIME_OFFSET ( 8, 0, .AHEAD. ) ;
#227 = CARTESIAN_POINT ( 'NONE',  ( -5.000000000000000888, -4.999999999999998224, 5.000000000000000000 ) ) ;
#228 = DATE_AND_TIME ( #309, #178 ) ;
#229 = FACE_OUTER_BOUND ( 'NONE', #194, .T. ) ;
#230 = ADVANCED_FACE ( 'NONE', ( #317 ), #184, .F. ) ;
#231 = DIRECTION ( 'NONE',  ( -4.857225732735059864E-17, -1.000000000000000000, 0.000000000000000000 ) ) ;
#232 = DIRECTION ( 'NONE',  ( 1.000000000000000000, 0.000000000000000000, 0.000000000000000000 ) ) ;
#233 = FACE_OUTER_BOUND ( 'NONE', #243, .T. ) ;
#234 = AXIS2_PLACEMENT_3D ( 'NONE', #123, #225, #67 ) ;
#235 = EDGE_CURVE ( 'NONE', #169, #90, #87, .T. ) ;
#236 = DIRECTION ( 'NONE',  ( -0.000000000000000000, -0.000000000000000000, -1.000000000000000000 ) ) ;
#237 = LINE ( 'NONE', #208, #241 ) ;
#238 = FACE_OUTER_BOUND ( 'NONE', #98, .T. ) ;
#239 = VECTOR ( 'NONE', #130, 1000.000000000000000 ) ;
#240 = PRODUCT_DEFINITION_FORMATION_WITH_SPECIFIED_SOURCE ( 'ANY', '', #49, .NOT_KNOWN. ) ;
#241 = VECTOR ( 'NONE', #65, 1000.000000000000000 ) ;
#242 = CARTESIAN_POINT ( 'NONE',  ( 5.000000000000000888, 5.000000000000001776, 5.000000000000000000 ) ) ;
#243 = EDGE_LOOP ( 'NONE', ( #70, #5, #305, #23 ) ) ;
#244 = MECHANICAL_CONTEXT ( 'NONE', #264, 'mechanical' ) ;
#245 = EDGE_CURVE ( 'NONE', #186, #169, #108, .T. ) ;
#246 = ORIENTED_EDGE ( 'NONE', *, *, #160, .T. ) ;
#247 = DIRECTION ( 'NONE',  ( 1.000000000000000000, 0.000000000000000000, 0.000000000000000000 ) ) ;
#248 = EDGE_LOOP ( 'NONE', ( #197, #253, #159 ) ) ;
#249 = VECTOR ( 'NONE', #34, 1000.000000000000000 ) ;
#250 = CC_DESIGN_SECURITY_CLASSIFICATION ( #104, ( #240 ) ) ;
#251 = APPROVAL_ROLE ( '' ) ;
#252 = EDGE_CURVE ( 'NONE', #2, #137, #36, .T. ) ;
#253 = ORIENTED_EDGE ( 'NONE', *, *, #41, .T. ) ;
#254 = CARTESIAN_POINT ( 'NONE',  ( 5.000000000000000888, 5.000000000000001776, 5.000000000000000000 ) ) ;
#255 = APPROVAL_STATUS ( 'not_yet_approved' ) ;
#256 = EDGE_CURVE ( 'NONE', #201, #27, #314, .T. ) ;
#257 = EDGE_LOOP ( 'NONE', ( #47, #310, #246, #296 ) ) ;
#258 = FACE_OUTER_BOUND ( 'NONE', #248, .T. ) ;
#259 = APPROVAL_PERSON_ORGANIZATION ( #30, #35, #251 ) ;
#260 = CARTESIAN_POINT ( 'NONE',  ( -4.999999999999999112, -5.000000000000000000, 5.000000000000000000 ) ) ;
#261 = DIRECTION ( 'NONE',  ( -1.734723475976807094E-16, -1.000000000000000000, 0.000000000000000000 ) ) ;
#262 = DIRECTION ( 'NONE',  ( 0.7071067811865474617, -0.7071067811865475727, 0.000000000000000000 ) ) ;
#263 = DIRECTION ( 'NONE',  ( 1.000000000000000000, 0.000000000000000000, 0.000000000000000000 ) ) ;
#264 = APPLICATION_CONTEXT ( 'configuration controlled 3d designs of mechanical parts and assemblies' ) ;
#265 = CC_DESIGN_APPROVAL ( #136, ( #64 ) ) ;
#266 = CARTESIAN_POINT ( 'NONE',  ( 0.000000000000000000, 0.000000000000000000, -5.000000000000000000 ) ) ;
#267 = VECTOR ( 'NONE', #170, 1000.000000000000000 ) ;
#268 = DIRECTION ( 'NONE',  ( -0.7071067811865475727, -0.7071067811865474617, 0.000000000000000000 ) ) ;
#269 = CARTESIAN_POINT ( 'NONE',  ( 0.000000000000000000, 0.000000000000000000, 0.000000000000000000 ) ) ;
#270 = APPROVAL_ROLE ( '' ) ;
#271 = ORIENTED_EDGE ( 'NONE', *, *, #187, .T. ) ;
#272 = CARTESIAN_POINT ( 'NONE',  ( 5.000000000000000888, 5.000000000000001776, -5.000000000000000000 ) ) ;
#273 = ORIENTED_EDGE ( 'NONE', *, *, #252, .F. ) ;
#274 = PLANE ( 'NONE',  #69 ) ;
#275 = CARTESIAN_POINT ( 'NONE',  ( 5.000000000000002665, 5.000000000000000000, -5.000000000000000000 ) ) ;
#276 = PERSON_AND_ORGANIZATION ( #68, #18 ) ;
#277 = PLANE ( 'NONE',  #203 ) ;
#278 = APPROVAL_DATE_TIME ( #221, #136 ) ;
#279 = ADVANCED_FACE ( 'NONE', ( #290 ), #285, .F. ) ;
#280 = PLANE ( 'NONE',  #15 ) ;
#281 = VECTOR ( 'NONE', #83, 1000.000000000000000 ) ;
#282 = LOCAL_TIME ( 11, 10, 49.00000000000000000, #226 ) ;
#283 = AXIS2_PLACEMENT_3D ( 'NONE', #210, #262, #183 ) ;
#284 = APPROVAL_DATE_TIME ( #228, #139 ) ;
#285 = PLANE ( 'NONE',  #94 ) ;
#286 = CARTESIAN_POINT ( 'NONE',  ( 5.000000000000002665, 5.000000000000000000, 5.000000000000000000 ) ) ;
#287 = CARTESIAN_POINT ( 'NONE',  ( 5.000000000000000888, 5.000000000000001776, 5.000000000000000000 ) ) ;
#288 = DIRECTION ( 'NONE',  ( 1.734723475976807094E-16, 1.000000000000000000, -0.000000000000000000 ) ) ;
#289 = EDGE_CURVE ( 'NONE', #169, #43, #182, .T. ) ;
#290 = FACE_OUTER_BOUND ( 'NONE', #215, .T. ) ;
#291 = CARTESIAN_POINT ( 'NONE',  ( 5.000000000000000888, 5.000000000000001776, 5.000000000000000000 ) ) ;
#292 = VECTOR ( 'NONE', #236, 1000.000000000000000 ) ;
#293 = ORIENTED_EDGE ( 'NONE', *, *, #245, .T. ) ;
#294 = EDGE_CURVE ( 'NONE', #95, #2, #180, .T. ) ;
#295 =( NAMED_UNIT ( * ) SI_UNIT ( $, .STERADIAN. ) SOLID_ANGLE_UNIT ( ) );
#296 = ORIENTED_EDGE ( 'NONE', *, *, #28, .T. ) ;
#297 = ADVANCED_FACE ( 'NONE', ( #10 ), #86, .F. ) ;
#298 = APPROVAL_STATUS ( 'not_yet_approved' ) ;
#299 = ADVANCED_FACE ( 'NONE', ( #238 ), #274, .F. ) ;
#300 = VECTOR ( 'NONE', #82, 1000.000000000000000 ) ;
#301 = CARTESIAN_POINT ( 'NONE',  ( -4.999999999999999112, 5.000000000000001776, -5.000000000000000000 ) ) ;
#302 = ORIENTED_EDGE ( 'NONE', *, *, #155, .F. ) ;
#303 = UNCERTAINTY_MEASURE_WITH_UNIT (LENGTH_MEASURE( 1.000000000000000082E-05 ), #20, 'distance_accuracy_value', 'NONE');
#304 = SECURITY_CLASSIFICATION_LEVEL ( 'unclassified' ) ;
#305 = ORIENTED_EDGE ( 'NONE', *, *, #75, .F. ) ;
#306 = CARTESIAN_POINT ( 'NONE',  ( 5.000000000000002665, 5.000000000000000000, 5.000000000000000000 ) ) ;
#307 = ADVANCED_FACE ( 'NONE', ( #191 ), #73, .T. ) ;
#308 = COORDINATED_UNIVERSAL_TIME_OFFSET ( 8, 0, .AHEAD. ) ;
#309 = CALENDAR_DATE ( 2020, 22, 12 ) ;
#310 = ORIENTED_EDGE ( 'NONE', *, *, #112, .F. ) ;
#311 = VERTEX_POINT ( 'NONE', #301 ) ;
#312 = PERSON_AND_ORGANIZATION ( #68, #18 ) ;
#313 = LINE ( 'NONE', #179, #148 ) ;
#314 = LINE ( 'NONE', #85, #239 ) ;
#315 = PRODUCT_RELATED_PRODUCT_CATEGORY ( 'detail', '', ( #49 ) ) ;
#316 = DIRECTION ( 'NONE',  ( 1.000000000000000000, -2.220446049250313081E-16, 0.000000000000000000 ) ) ;
#317 = FACE_OUTER_BOUND ( 'NONE', #257, .T. ) ;
#318 = CLOSED_SHELL ( 'NONE', ( #71, #230, #132, #11, #141 ) ) ;
#319 = VERTEX_POINT ( 'NONE', #89 ) ;
#320 = EDGE_CURVE ( 'NONE', #90, #319, #219, .T. ) ;
#321 = PERSON_AND_ORGANIZATION ( #68, #18 ) ;
ENDSEC;
END-ISO-10303-21;
